Van Helenís Humans Being Tabs

Tabbed by TotalyHAB aka Dan

From Album: Van Halen Volume 1

 

Intro

E-------------------------------------------------------------------------------

B-------------------------------------------------------------------------------

G-2------5-7----2------5-7----2------5-7----------2-0---------------------------

D-2--X--5-7----2--X--5-7----2--X--5-7-X-----2----2\4-------------------PLAYX2

A-0--X--3-5-X-0--X--3-5-X 0--X--3-5-X-0-2--------------------------

E-------------------------------------------------------------------------------

 

 

E-------------------------------------------------------------------------------

B-------------------------------------------------------------------------------

G-2----5-7----2----5-7-- -0-------5---7---\19/5--------------------

D-2----5-7----2----5-7-- -2-------5---7--------------2-2--5-7---2-2--5-

A-0----3-5-x- 0----3-5-x-2-x---3---5-------------x-2-2--5-7---2-2--5-

E-0-x--------- 0-x--------0-x----------------------x-0-0--3-5-x-0-0--3----

 

 

E-------------------------------------------------------------------------------

B-------------------------------------------------------------------------------

G-------------------------------------------------------------------------------

D-2-2--5-7-----------2-0-----------------------------------------------------

A-2-2--5-7-X-----0-2----2\4------------------------------------------------

E-0-0--3-5-X-0-2------------------------------------------------------------

This is all I have so far email me if u se any mistakes. mailto:TotalyHAB@hotmail.com