Steppenwolf Screaming Night Hog Tabs

Tabbed by TotalyHAB aka Dan

From Album: All Time Greatest Hits

 

 

 

Intro part1

E--------------------------------------

B-7-10-10-10---97--7-9-7--10b-97----------

G---------------9-------------9---------

D--------------------------------------playx4

A--------------------------------------

E--------------------------------------

 

 

Right after part1 before singing

E-------------------------------------------

B-------------------------------------------

G---7---9-797-------------------------------

D-9---9--------979----------------------------

A-------------------------------------------

E-------------------------------------------

 

 

 Part 11 When Singing Starts

E------------------------------7----7------------------------------

B-----------------------------------------------------------

G------7X--9~--/7-9-9-9--9----9----9b---7---9-797----

D-9X--7X-------/7-9-9-9-----------9----9-------------979-

A-9X---------------------------------------------------------

E---------------------------------------------------------------

 Still Singing

E-----------------------------------------------

B---------------------------7-9-7-9~^^^--------

G-------------9~-7-99-9---------------------

D-x9x9x9-9-------------------------------------

A-x9x9x9-9---------------------------------------

E-----------------------------------------------

 

Then Play Part 1 twice

 

E---------------------------------------

B---------------------------------------

G----7----9-797---------------------------

D-9----9---------9x79----------------------

A---------------------------------------

E---------------------------------------

 

Play part 11 again with the singing

 

Then Part 1 twice

 

E-------------------------------------------

B-------------------------------------------

G---7----9--797-------------------------------

D-9---9-----------979----------------------------

A-------------------------------------------

E-------------------------------------------

 part 3 after singing

E-----------------------------------------------------------------------

B--------------------------------------------------------------------------

G---7---9-9--7-----------------4--4b-2----2----2b-----------------4---

D-9---9---9--7--9------------4----------4------------4p24------4-----

A----------7--5--9-------0-2-------------------4-------------5-2-------

E------------------7--0-3------------------------------------------------

 

E-----------------------------------------------------------------

B---------------------------------------------------------------

G----------------3-5-3----------------------------------------------------

D------4-2P0----------4h2h4------------------------------------------------

A-0-2---------2----------------------------------------------------------

E------------------------------------------------------------------

 

E--------------

B-3h5h3--------repeat 12 or so times

G--------------

D--------------

A--------------

E--------------

 

E----------------------------------

B----------------------------------

G-------------7--------------------

D-----7----9-------9------7---------9--

A-9------------------------------9------

E----------------------------------

  till the chilly winds come to blow

 

That is the Whole Song, if You See Any Mistakes Email Me At TotalyHAB@hotmail.com